Clandestino : Manu Chao

Voici les trois accords pour jouer Clandestino de Manu Chao


F#m :    244222   
(fa diése mineur)

Bm :      224432
       (Si mineur)

F#7/C7 : C#7 (446464)   (Fa diése 7 Do 7)


F#m


Solo voy con mi pena Bm Sola va mi condena
 
F#7/C7 Correr es mi destino F#m Para burlar la ley

Perdido en el corazon Bm De la grande babylon F#7/C7

Me dicen el clandestino F#m Por no llevar papel

Pa una ciudad del norte Bm Yo me fui a trabajar F#7/C7
 
Mi vida la deje F#m Entre ceuta y gibraltar Soy una raya en el mar Bm
 
Fantasma en la ciudad F#7/C7 Mi vida va prohibida F#m Dice la autoridad F#m

Solo voy con mi pena Bm Sola va mi condena F#7/C7
 
Correr es mi destino F#m Para burlar la ley Perdido en el corazon Bm
 
De la grande babylon F#7/C7 Me dicen el clandestino F#m

 Yo soy el quiebra ley Bm F#m

Mano negra clandestina Bm F#m Peruano clandestino Bm F#m

Africano clandestino F#7/C7 F#m

Marijuana ilegal F#m
 
Solo voy con mi pena Bm Sola va mi condena F#7/C7

Correr es mi destino F#m Para burlar la ley Perdido en el corazon Bm

De la grande babylon F#7/C7  Me dicen el clandestino F#m Por no llevar papel

Partition transcrite par : Guitare relax

 Voici le solo guitare de Clandestino dans Radio Bemba:

-9--9--9--9--9--9--10--9---9---9---| -10-10-10-10-10-10-12--10--10--10--| -----------------------------------|

-----------------------------------| -----------------------------------| -----------------------------------|

10--7---------10-10-10-9--| 12--9--10-9---12-12-12-10-| -------11-10--------------| --------------------------|

--------------------------| --------------------------| ------9-12-10-12-10-9----10-10-10-9-|

9-10-----------------12-------------| ------------------------------------| ------------------------------------|

------------------------------------| ------------------------------------| --------9--9--9--9--9--10--9---|

12-10--10-10-10-10-10--12--10--| -------------------------------| -------------------------------|

-------------------------------| -------------------------------| 12-12-12-12-10-9--10-| 14-14-14-14-12-10-12-|

---------------------| ---------------------| ---------------------| ---------------------|

------12------12------12-12-10-9-7-------------| -9-10----9-10----9-10--------------10-9-7-9-10-|

-----------------------------------------------| -----------------------------------------------| -----------------------------------------------| -----------------------------------------------|
ce site a été créé sur www.quomodo.com